1-2 Crush On You Bass Tablature


Transcribed by Sam Oglethorpe (sogletho@surf.its.bond.edu.au).

Intro

G---------------------------------|
D---------------------------------|
A---------------------------------|
E-0000000000000000000000000-etc.--|

Verse

G--------------------------|-----------------------|
D--------------------------|-----------------------|
A----44-77-44-----44-77-44-|----44-77-44--55555555-|
E-55-----------55----------|-55--------------------|

G--------------------------|-----------------------------|
D--------------------------|-----------------------------|
A----44-77-44-----44-77-44-|-----------------------------|
E-55-----------55----------|-0h2-22-0h2-22-0h2-22-0h2-22-|

G-----------|-------------------|
D---67976---|-------------------|
A-7-------7-|-------------------|
E-----------|------5-5--5-5-5-5-|

Chorus

"I wanna get serious right away..."

G--------------------------|----------------|
D--------------------------|----------------|
A----22-55-22-----44-77-44-|---5--2---------|x3
E-33-----------55----------|---------5--2-2-|

G-#-----------------#|--------------------------|
D-#-----------------#|--------------------------|
A-#---R-R-R-R-R-R-R-#|----44-77-44-----44-77-44-|
E-#-3---------------#|-55-----------55----------|

Sax Solo (play verse)

Verse 2

Chorus. (In place of the 3rd bar when the guitar is on G (indicated by #), play:)

G--------------------------|
D--------------------------|
A----22-55-22-----22-55-22-|
E-33-----------33----------|

Add on bit (while guitar plays D,F#,D,F#,D,F#,G,A)

G---------------|---------------|---------------|
D---------------|---------------|---------------|
A--5--2---------|--5--2---------|--5--2---------|
E--------5--2-2-|--------5--2-2-|--------5--2-2-|

G--------------------------|--------------------------|
D--------------------------|--------------------------|
A----22-55-22-----22-55-22-|----44-77-44-----44-77-44-|
E-33-----------33----------|-55-----------55----------|

Outro (when music starts again). Repeat first two bars of the verse a couple of times.
Guitar Tabs | Home | Bass Tabs


resoo.org - 2007